www.percunivers.com

<<< leçon précédente
leçon suivante >>>

leçon de batterie n°5

zip pdf

LES SILENCES

   LE SOUPIR,
   LA DEMI-PAUSE ET
   LA PAUSE.

   Les silences sont des figures qui se définissent comme ceci : le silence indique l'interruption d'un son.
Leurs valeurs se définissent ainsi : la pause équivaut à la ronde, la demi-pause équivaut à la blanche, le soupir équivaut à la noire.

   Les exercices suivants pourront être joués sur le tambour muet ou la caisse claire, main droite puis main gauche. Ou encore simultanément, main gauche sur la caisse-claire et main droite sur le tom basse ou la cymbale ride.

Réglez votre métronome entre 80 et 100.

   Commençons par LE SOUPIR, les exercices suivants étant écrits en 4/4 le soupir vaut ici 1 temps comme la noire.

EXERCICE N°1

Tempo : 80bpm ; count in = 1234



05-ex01

|1-2-3-4-|1-2-3-4-|1-2-3-4-|1-2-3-4-|1-2-3-4-|1-2-3-4-|1-2-3-4-|1-2-3-4-|
|o-------|o---o---|o-o-o---|o---o-o-|o-o---o-|o-o-----|o-o-o-o-|------o-|

|1-2-3-4-|1-2-3-4-|1-2-3-4-|1-2-3-4-|1-2-3-4-|1-2-3-4-|1-2-3-4-|1-2-3-4-||
|--o---o-|--o-o-o-|----o---|o-o---o-|o---o-o-|--o-o---|o-----o-|o-o-o-o-||

EXERCICE N°2

Tempo : 80bpm ; count in = 1234



05-ex02

|1-2-3-4-|1-2-3-4-|1-2-3-4-|1-2-3-4-|1-2-3-4-|1-2-3-4-|1-2-3-4-|1-2-3-4-|
|o-o-o-o-|--o-o-o-|o---o-o-|o-o---o-|o-o-o---|o---o-o-|--o-o-o-|o-o---o-|

|1-2-3-4-|1-2-3-4-|1-2-3-4-|1-2-3-4-|1-2-3-4-|1-2-3-4-|1-2-3-4-|1-2-3-4-||
|--o---o-|--o---o-|--o-o---|--o-o-o-|----o---|--o-----|o-----o-|------o-||

EXERCICE N°3

Tempo : 80bpm ; count in = 1234



05-ex03

|1-2-3-4-|1-2-3-4-|1-2-3-4-|1-2-3-4-|1-2-3-4-|1-2-3-4-|1-2-3-4-|1-2-3-4-|
|o---o---|o-o-o-o-|o---o---|o-o-o-o-|o---o-o-|o---o-o-|o-o-o---|o-o-o---|

|1-2-3-4-|1-2-3-4-|1-2-3-4-|1-2-3-4-|1-2-3-4-|1-2-3-4-|1-2-3-4-|1-2-3-4-||
|o-o---o-|o-o---o-|o-o-----|o-----o-|o-----o-|o-o---o-|----o---|--o---o-||

EXERCICE N°4

Tempo : 80bpm ; count in = 1234



05-ex04

|1-2-3-4-|1-2-3-4-|1-2-3-4-|1-2-3-4-|1-2-3-4-|1-2-3-4-|1-2-3-4-|1-2-3-4-|
|--o-----|--o-o---|--o---o-|o---o---|----o---|o---o-o-|--o-o---|o---o---|

|1-2-3-4-|1-2-3-4-|1-2-3-4-|1-2-3-4-|1-2-3-4-|1-2-3-4-|1-2-3-4-|1-2-3-4-||
|--o-----|o-------|--o---o-|--o---o-|--o---o-|o-o-o-o-|--------|o-o-o-o-||

EXERCICE N°5

Tempo : 80bpm ; count in = 1234



05-ex05

|1-2-3-4-|1-2-3-4-|1-2-3-4-|1-2-3-4-|1-2-3-4-|1-2-3-4-|1-2-3-4-|1-2-3-4-|
|o-------|o-------|o---o---|o-------|--o-o---|o-------|o-o-----|o-o-o-o-|

|1-2-3-4-|1-2-3-4-|1-2-3-4-|1-2-3-4-|1-2-3-4-|1-2-3-4-|1-2-3-4-|1-2-3-4-||
|o-------|------o-|o-------|o-o-----|--o-o---|----o-o-|------o-|o-------||

^retour^

   Continuons avec la DEMI-PAUSE. Ici la demi-pause vaut 2 temps comme la blanche.

EXERCICE N°6

Tempo : 80bpm ; count in = 1234



05-ex06

|1-2-3-4-|1-2-3-4-|1-2-3-4-|1-2-3-4-|1-2-3-4-|1-2-3-4-|1-2-3-4-|1-2-3-4-|
|o-o-----|o---o---|----o-o-|o---o---|o-----o-|o-o---o-|--o-----|o-o-o-o-|

|1-2-3-4-|1-2-3-4-|1-2-3-4-|1-2-3-4-|1-2-3-4-|1-2-3-4-|1-2-3-4-|1-2-3-4-||
|----o---|------o-|----o---|--o-----|o-o-o-o-|o-------|o---o---|o-------||

EXERCICE N°7

Tempo : 80bpm ; count in = 1234



05-ex07

|1-2-3-4-|1-2-3-4-|1-2-3-4-|1-2-3-4-|1-2-3-4-|1-2-3-4-|1-2-3-4-|1-2-3-4-|
|o-----o-|o-o-o---|o-o-o-o-|o---o-o-|o-o---o-|o-o-----|----o---|o-o-o-o-|

|1-2-3-4-|1-2-3-4-|1-2-3-4-|1-2-3-4-|1-2-3-4-|1-2-3-4-|1-2-3-4-|1-2-3-4-||
|o-------|------o-|o-o-o---|o---o-o-|--o-o---|----o-o-|o-o-o---|------o-||

EXERCICE N°8

Tempo : 80bpm ; count in = 1234



05-ex08

|1-2-3-4-|1-2-3-4-|1-2-3-4-|1-2-3-4-|1-2-3-4-|1-2-3-4-|1-2-3-4-|1-2-3-4-|
|----o---|--o-o-o-|----o-o-|o-----o-|o-o-----|o-o-o-o-|o-------|o---o---|

|1-2-3-4-|1-2-3-4-|1-2-3-4-|1-2-3-4-|1-2-3-4-|1-2-3-4-|1-2-3-4-|1-2-3-4-||
|o-o---o-|o-o---o-|----o---|----o---|o-------|o-------|o-------|o-o-o-o-||

EXERCICE N°9

Tempo : 80bpm ; count in = 1234



05-ex09

|1-2-3-4-|1-2-3-4-|1-2-3-4-|1-2-3-4-|1-2-3-4-|1-2-3-4-|1-2-3-4-|1-2-3-4-|
|o-o-o-o-|o-o-----|o-o-o-o-|----o-o-|o-o-----|o-o-o-o-|o-----o-|o-o-o-o-|

|1-2-3-4-|1-2-3-4-|1-2-3-4-|1-2-3-4-|1-2-3-4-|1-2-3-4-|1-2-3-4-|1-2-3-4-||
|----o-o-|o-o-o---|--o-o-o-|o-----o-|o-o-o-o-|----o-o-|o-o-o---|o-------||

EXERCICE N°10

Tempo : 80bpm ; count in = 1234



05-ex10

|1-2-3-4-|1-2-3-4-|1-2-3-4-|1-2-3-4-|1-2-3-4-|1-2-3-4-|1-2-3-4-|1-2-3-4-|
|o-o-o---|----o-o-|o-------|o-o-o---|o-----o-|----o---|--o-o---|o---o---|

|1-2-3-4-|1-2-3-4-|1-2-3-4-|1-2-3-4-|1-2-3-4-|1-2-3-4-|1-2-3-4-|1-2-3-4-||
|--o-----|o-----o-|o---o-o-|----o-o-|o---o---|----o---|o-------|o-----o-||

^retour^

   La PAUSE, dernier silence pour cette leçon, vaut autant que la ronde : 4 temps.

EXERCICE N°11

Tempo : 80bpm ; count in = 1234



05-ex11

|1-2-3-4-|1-2-3-4-|1-2-3-4-|1-2-3-4-|1-2-3-4-|1-2-3-4-|1-2-3-4-|1-2-3-4-|
|o-o-o-o-|--------|o-----o-|--o-o---|o---o---|--------|o-o---o-|o-------|

|1-2-3-4-|1-2-3-4-|1-2-3-4-|1-2-3-4-|1-2-3-4-|1-2-3-4-|1-2-3-4-|1-2-3-4-||
|o---o---|o-o-o---|--------|o-o-----|--------|o-o-o-o-|o-o-o-o-|o---o-o-||

EXERCICE N°12

Tempo : 80bpm ; count in = 1234



05-ex12

|1-2-3-4-|1-2-3-4-|1-2-3-4-|1-2-3-4-|1-2-3-4-|1-2-3-4-|1-2-3-4-|1-2-3-4-|
|--------|o-o-o---|--------|o-o-o---|--------|o-o-----|------o-|o-------|

|1-2-3-4-|1-2-3-4-|1-2-3-4-|1-2-3-4-|1-2-3-4-|1-2-3-4-|1-2-3-4-|1-2-3-4-||
|----o-o-|--------|--o-o---|--------|o-o-----|------o-|o-o-o-o-|--------||

EXERCICE N°13

Tempo : 80bpm ; count in = 1234



05-ex13

|1-2-3-4-|1-2-3-4-|1-2-3-4-|1-2-3-4-|1-2-3-4-|1-2-3-4-|1-2-3-4-|1-2-3-4-|
|o-----o-|----o---|--------|o-o-o-o-|--------|o---o---|--o---o-|--------|

|1-2-3-4-|1-2-3-4-|1-2-3-4-|1-2-3-4-|1-2-3-4-|1-2-3-4-|1-2-3-4-|1-2-3-4-||
|--------|o-----o-|--o---o-|--o---o-|o-o---o-|o-o-o---|o---o-o-|o-o-o-o-||

EXERCICE N°14

Tempo : 80bpm ; count in = 1234



05-ex14

|1-2-3-4-|1-2-3-4-|1-2-3-4-|1-2-3-4-|1-2-3-4-|1-2-3-4-|1-2-3-4-|1-2-3-4-|
|o-o-o---|--o-o-o-|o---o-o-|--------|o-o-o---|o---o---|o---o---|o-------|

|1-2-3-4-|1-2-3-4-|1-2-3-4-|1-2-3-4-|1-2-3-4-|1-2-3-4-|1-2-3-4-|1-2-3-4-||
|o-o---o-|o---o-o-|o-----o-|o-o-o---|----o-o-|o-------|--------|o-o-o---||

EXERCICE N°15

Tempo : 80bpm ; count in = 1234



05-ex15

|1-2-3-4-|1-2-3-4-|1-2-3-4-|1-2-3-4-|1-2-3-4-|1-2-3-4-|1-2-3-4-|1-2-3-4-|
|o-o---o-|o---o-o-|--o-o---|o-------|o-o-o---|o-o---o-|o-o-o-o-|--------|

|1-2-3-4-|1-2-3-4-|1-2-3-4-|1-2-3-4-|1-2-3-4-|1-2-3-4-|1-2-3-4-|1-2-3-4-||
|o-o-o---|--o-o-o-|--------|o-o-o---|--o-o-o-|--------|o-o-o---|--o-o-o-||

^retour^

<<< leçon précédente
leçon suivante >>>

E-MAIL

accueil | gestes | leçons | boutique | voyage | ataflop | audio | jazz | mao | faq | plan | RSS

creative commons licenses

creative commons by creative commons no commercial creative commons no derivative